  0
SECTION
  2
HEADER
  9
$ACADVER
  1
AC1009
  9
$INSBASE
 10
0.0
 20
0.0
 30
0.0
  9
$EXTMIN
 10
7.975232
 20
5.98062
 30
0.0
  9
$EXTMAX
 10
35.100049
 20
26.739677
 30
0.0
  9
$LIMMIN
 10
0.0
 20
0.0
  9
$LIMMAX
 10
44.0
 20
34.0
  9
$ORTHOMODE
 70
     0
  9
$REGENMODE
 70
     1
  9
$FILLMODE
 70
     1
  9
$QTEXTMODE
 70
     0
  9
$MIRRTEXT
 70
     1
  9
$DRAGMODE
 70
     2
  9
$LTSCALE
 40
1.0
  9
$OSMODE
 70
     0
  9
$ATTMODE
 70
     1
  9
$TEXTSIZE
 40
0.375
  9
$TRACEWID
 40
0.05
  9
$TEXTSTYLE
  7
ROMAND
  9
$CLAYER
  8
DIM
  9
$CELTYPE
  6
BYLAYER
  9
$CECOLOR
 62
   256
  9
$DIMSCALE
 40
1.0
  9
$DIMASZ
 40
0.25
  9
$DIMEXO
 40
0.0625
  9
$DIMDLI
 40
0.38
  9
$DIMRND
 40
0.0
  9
$DIMDLE
 40
0.0
  9
$DIMEXE
 40
0.18
  9
$DIMTP
 40
0.0
  9
$DIMTM
 40
0.0
  9
$DIMTXT
 40
0.18
  9
$DIMCEN
 40
0.09
  9
$DIMTSZ
 40
0.0
  9
$DIMTOL
 70
     0
  9
$DIMLIM
 70
     0
  9
$DIMTIH
 70
     1
  9
$DIMTOH
 70
     1
  9
$DIMSE1
 70
     0
  9
$DIMSE2
 70
     0
  9
$DIMTAD
 70
     0
  9
$DIMZIN
 70
     0
  9
$DIMBLK
  1

  9
$DIMASO
 70
     1
  9
$DIMSHO
 70
     0
  9
$DIMPOST
  1

  9
$DIMAPOST
  1

  9
$DIMALT
 70
     0
  9
$DIMALTD
 70
     2
  9
$DIMALTF
 40
25.4
  9
$DIMLFAC
 40
1.0
  9
$DIMTOFL
 70
     0
  9
$DIMTVP
 40
0.0
  9
$DIMTIX
 70
     0
  9
$DIMSOXD
 70
     0
  9
$DIMSAH
 70
     0
  9
$DIMBLK1
  1

  9
$DIMBLK2
  1

  9
$DIMSTYLE
  2
*UNNAMED
  9
$DIMCLRD
 70
     0
  9
$DIMCLRE
 70
     0
  9
$DIMCLRT
 70
     0
  9
$DIMTFAC
 40
1.0
  9
$DIMGAP
 40
0.09
  9
$LUNITS
 70
     4
  9
$LUPREC
 70
     4
  9
$SKETCHINC
 40
0.1
  9
$FILLETRAD
 40
0.0
  9
$AUNITS
 70
     0
  9
$AUPREC
 70
     0
  9
$MENU
  1
acad
  9
$ELEVATION
 40
0.0
  9
$PELEVATION
 40
0.0
  9
$THICKNESS
 40
0.0
  9
$LIMCHECK
 70
     0
  9
$BLIPMODE
 70
     1
  9
$CHAMFERA
 40
0.0
  9
$CHAMFERB
 40
0.0
  9
$SKPOLY
 70
     0
  9
$TDCREATE
 40
2449086.444496527
  9
$TDUPDATE
 40
2450135.521367476
  9
$TDINDWG
 40
0.0081719907
  9
$TDUSRTIMER
 40
0.0081719907
  9
$USRTIMER
 70
     1
  9
$ANGBASE
 50
0.0
  9
$ANGDIR
 70
     0
  9
$PDMODE
 70
     0
  9
$PDSIZE
 40
0.0
  9
$PLINEWID
 40
0.0
  9
$COORDS
 70
     2
  9
$SPLFRAME
 70
     0
  9
$SPLINETYPE
 70
     6
  9
$SPLINESEGS
 70
     8
  9
$ATTDIA
 70
     0
  9
$ATTREQ
 70
     1
  9
$HANDLING
 70
     0
  9
$HANDSEED
  5
0
  9
$SURFTAB1
 70
     6
  9
$SURFTAB2
 70
     6
  9
$SURFTYPE
 70
     6
  9
$SURFU
 70
     6
  9
$SURFV
 70
     6
  9
$UCSNAME
  2

  9
$UCSORG
 10
0.0
 20
0.0
 30
0.0
  9
$UCSXDIR
 10
1.0
 20
0.0
 30
0.0
  9
$UCSYDIR
 10
0.0
 20
1.0
 30
0.0
  9
$PUCSNAME
  2

  9
$PUCSORG
 10
0.0
 20
0.0
 30
0.0
  9
$PUCSXDIR
 10
1.0
 20
0.0
 30
0.0
  9
$PUCSYDIR
 10
0.0
 20
1.0
 30
0.0
  9
$USERI1
 70
     0
  9
$USERI2
 70
     0
  9
$USERI3
 70
     0
  9
$USERI4
 70
     0
  9
$USERI5
 70
     0
  9
$USERR1
 40
0.0
  9
$USERR2
 40
0.0
  9
$USERR3
 40
0.0
  9
$USERR4
 40
0.0
  9
$USERR5
 40
0.0
  9
$WORLDVIEW
 70
     1
  9
$SHADEDGE
 70
     3
  9
$SHADEDIF
 70
    70
  9
$TILEMODE
 70
     1
  9
$MAXACTVP
 70
    16
  9
$PINSBASE
 10
0.0
 20
0.0
 30
0.0
  9
$PLIMCHECK
 70
     0
  9
$PEXTMIN
 10
1.000000E+20
 20
1.000000E+20
 30
1.000000E+20
  9
$PEXTMAX
 10
-1.000000E+20
 20
-1.000000E+20
 30
-1.000000E+20
  9
$PLIMMIN
 10
0.0
 20
0.0
  9
$PLIMMAX
 10
12.0
 20
9.0
  9
$UNITMODE
 70
     0
  9
$VISRETAIN
 70
     0
  9
$PLINEGEN
 70
     0
  9
$PSLTSCALE
 70
     0
  9
$TREEDEPTH
 70
  3020
  9
$DWGCODEPAGE
  3
undefined
  0
ENDSEC
  0
SECTION
  2
TABLES
  0
TABLE
  2
VPORT
 70
     2
  0
VPORT
  2
*ACTIVE
 70
     0
 10
0.0
 20
0.0
 11
1.0
 21
1.0
 12
30.047619
 22
17.0
 13
0.0
 23
0.0
 14
1.0
 24
1.0
 15
0.0
 25
0.0
 16
0.0
 26
0.0
 36
1.0
 17
0.0
 27
0.0
 37
0.0
 40
34.0
 41
1.767507
 42
50.0
 43
0.0
 44
0.0
 50
0.0
 51
0.0
 71
     0
 72
   100
 73
     1
 74
     1
 75
     0
 76
     0
 77
     0
 78
     0
  0
ENDTAB
  0
TABLE
  2
LTYPE
 70
     3
  0
LTYPE
  2
CONTINUOUS
 70
    64
  3
Solid line
 72
    65
 73
     0
 40
0.0
  0
LTYPE
  2
DASHED
 70
     0
  3
__ __ __ __ __ __ __ __ __ __ __ __ __ __ __
 72
    65
 73
     2
 40
0.75
 49
0.5
 49
-0.25
  0
LTYPE
  2
HIDDEN
 70
     0
  3
_ _ _ _ _ _ _ _ _ _ _ _ _ _ _ _ _ _ _ _ _ _ _
 72
    65
 73
     2
 40
0.375
 49
0.25
 49
-0.125
  0
ENDTAB
  0
TABLE
  2
LAYER
 70
     6
  0
LAYER
  2
0
 70
    64
 62
     7
  6
CONTINUOUS
  0
LAYER
  2
DIM
 70
    64
 62
     6
  6
CONTINUOUS
  0
LAYER
  2
PANEL
 70
    64
 62
     4
  6
CONTINUOUS
  0
LAYER
  2
WOOD
 70
    64
 62
     2
  6
CONTINUOUS
  0
LAYER
  2
CLIP
 70
    64
 62
     9
  6
CONTINUOUS
  0
LAYER
  2
FLASH
 70
    64
 62
     1
  6
CONTINUOUS
  0
ENDTAB
  0
TABLE
  2
STYLE
 70
     2
  0
STYLE
  2
STANDARD
 70
     0
 40
0.0
 41
1.0
 50
0.0
 71
     0
 42
0.2
  3
txt
  4

  0
STYLE
  2
ROMAND
 70
    64
 40
0.375
 41
1.0
 50
0.0
 71
     0
 42
0.375
  3
romand
  4

  0
ENDTAB
  0
TABLE
  2
VIEW
 70
     0
  0
ENDTAB
  0
TABLE
  2
UCS
 70
     0
  0
ENDTAB
  0
TABLE
  2
APPID
 70
     1
  0
APPID
  2
ACAD
 70
    64
  0
ENDTAB
  0
TABLE
  2
DIMSTYLE
 70
     0
  0
ENDTAB
  0
ENDSEC
  0
SECTION
  2
BLOCKS
  0
ENDSEC
  0
SECTION
  2
ENTITIES
  0
LINE
  8
PANEL
 10
21.981217
 20
10.874885
 30
0.0
 11
21.935988
 21
11.912252
 31
0.0
  0
TEXT
  8
DIM
 10
11.996397
 20
17.572485
 30
0.0
 40
0.375
  1
30# ROOFING FELT
 50
0.0
  7
ROMAND
  0
LINE
  8
0
 10
9.245378
 20
15.146422
 30
0.0
 11
9.245378
 21
10.65969
 31
0.0
  0
LINE
  8
0
 10
7.975232
 20
9.78703
 30
0.0
 11
10.432614
 21
10.203203
 31
0.0
  0
LINE
  8
0
 10
10.432614
 20
10.203203
 30
0.0
 11
9.245378
 21
10.65969
 31
0.0
  0
LINE
  8
0
 10
9.245378
 20
9.260111
 30
0.0
 11
9.245378
 21
5.98062
 31
0.0
  0
LINE
  8
0
 10
7.975232
 20
9.78703
 30
0.0
 11
9.245378
 21
9.260111
 31
0.0
  0
LINE
  8
0
 10
31.184329
 20
25.549072
 30
0.0
 11
23.773084
 21
25.554007
 31
0.0
  0
LINE
  8
0
 10
22.373449
 20
25.554939
 30
0.0
 11
16.286463
 21
25.558992
 31
0.0
  0
LINE
  8
0
 10
22.900296
 20
24.282572
 30
0.0
 11
22.373449
 21
25.554939
 31
0.0
  0
LINE
  8
0
 10
22.900296
 20
24.282572
 30
0.0
 11
23.318106
 21
26.739677
 31
0.0
  0
LINE
  8
0
 10
23.318106
 20
26.739677
 30
0.0
 11
23.773084
 21
25.554007
 31
0.0
  0
LINE
  8
WOOD
 10
21.226122
 20
12.845902
 30
0.0
 11
21.226122
 21
25.555703
 31
0.0
  0
LINE
  8
PANEL
 10
23.164364
 20
12.259075
 30
0.0
 11
22.189499
 21
12.297419
 31
0.0
  0
LINE
  8
WOOD
 10
21.851122
 20
12.220902
 30
0.0
 11
21.851122
 21
12.845902
 31
0.0
  0
SOLID
  8
DIM
 10
22.709882
 20
12.590497
 30
0.0
 11
22.629611
 21
12.612883
 31
0.0
 12
22.602588
 22
12.360879
 32
0.0
 13
22.602588
 23
12.360879
 33
0.0
  0
LINE
  8
DIM
 10
22.669746
 20
12.60169
 30
0.0
 11
23.58744
 21
15.89228
 31
0.0
  0
SOLID
  8
DIM
 10
21.01565
 20
18.423047
 30
0.0
 11
20.981232
 21
18.347153
 31
0.0
 12
21.226122
 22
18.281846
 32
0.0
 13
21.226122
 23
18.281846
 33
0.0
  0
LINE
  8
DIM
 10
20.998441
 20
18.3851
 30
0.0
 11
19.05302
 21
19.267353
 31
0.0
  0
LINE
  8
DIM
 10
19.05302
 20
19.267353
 30
0.0
 11
18.232311
 21
19.267353
 31
0.0
  0
SOLID
  8
DIM
 10
21.707238
 20
17.206083
 30
0.0
 11
21.691636
 21
17.124223
 31
0.0
 12
21.945016
 22
17.118348
 32
0.0
 13
21.945016
 23
17.118348
 33
0.0
  0
LINE
  8
DIM
 10
21.699437
 20
17.165153
 30
0.0
 11
18.510089
 21
17.773014
 31
0.0
  0
LINE
  8
DIM
 10
18.510089
 20
17.773014
 30
0.0
 11
17.746772
 21
17.773014
 31
0.0
  0
SOLID
  8
DIM
 10
20.316741
 20
20.368005
 30
0.0
 11
20.256668
 21
20.31025
 31
0.0
 12
20.45997
 22
20.158908
 32
0.0
 13
20.45997
 23
20.158908
 33
0.0
  0
LINE
  8
DIM
 10
20.286705
 20
20.339128
 30
0.0
 11
18.332317
 21
22.371955
 31
0.0
  0
LINE
  8
CLIP
 10
13.959336
 20
12.756533
 30
0.0
 11
13.961929
 21
12.75837
 31
0.0
  0
LINE
  8
CLIP
 10
13.673331
 20
11.937253
 30
0.0
 11
13.673331
 21
11.878289
 31
0.0
  0
LINE
  8
CLIP
 10
14.06692
 20
11.937253
 30
0.0
 11
14.06692
 21
11.878289
 31
0.0
  0
ARC
  8
CLIP
 10
13.870126
 20
12.410708
 30
0.0
 40
0.567625
 50
249.714502
 51
290.285498
  0
LINE
  8
CLIP
 10
13.870576
 20
13.614293
 30
0.0
 11
13.805128
 21
13.404367
 31
0.0
  0
LINE
  8
CLIP
 10
13.870576
 20
13.614293
 30
0.0
 11
13.927112
 21
13.432301
 31
0.0
  0
LINE
  8
CLIP
 10
13.805128
 20
11.937253
 30
0.0
 11
13.805128
 21
12.022176
 31
0.0
  0
LINE
  8
CLIP
 10
13.936024
 20
11.937253
 30
0.0
 11
13.936024
 21
12.063312
 31
0.0
  0
LINE
  8
CLIP
 10
13.936024
 20
12.063312
 30
0.0
 11
13.805128
 21
12.022176
 31
0.0
  0
LINE
  8
CLIP
 10
13.936024
 20
12.126142
 30
0.0
 11
13.805128
 21
12.085006
 31
0.0
  0
LINE
  8
CLIP
 10
13.936024
 20
12.126142
 30
0.0
 11
13.962801
 21
12.103142
 31
0.0
  0
LINE
  8
CLIP
 10
13.962801
 20
12.103142
 30
0.0
 11
13.936024
 21
12.063312
 31
0.0
  0
LINE
  8
CLIP
 10
13.805128
 20
12.085006
 30
0.0
 11
13.776021
 21
12.044444
 31
0.0
  0
LINE
  8
CLIP
 10
13.776021
 20
12.044444
 30
0.0
 11
13.805128
 21
12.022176
 31
0.0
  0
LINE
  8
CLIP
 10
13.936024
 20
12.126142
 30
0.0
 11
13.936024
 21
12.194208
 31
0.0
  0
LINE
  8
CLIP
 10
13.805128
 20
12.085006
 30
0.0
 11
13.805128
 21
12.153072
 31
0.0
  0
LINE
  8
CLIP
 10
13.936024
 20
12.257038
 30
0.0
 11
13.805128
 21
12.215902
 31
0.0
  0
LINE
  8
CLIP
 10
13.936024
 20
12.194208
 30
0.0
 11
13.805128
 21
12.153072
 31
0.0
  0
LINE
  8
CLIP
 10
13.962801
 20
12.234038
 30
0.0
 11
13.936024
 21
12.194208
 31
0.0
  0
LINE
  8
CLIP
 10
13.936024
 20
12.257038
 30
0.0
 11
13.962801
 21
12.234038
 31
0.0
  0
LINE
  8
CLIP
 10
13.805128
 20
12.215902
 30
0.0
 11
13.776021
 21
12.17534
 31
0.0
  0
LINE
  8
CLIP
 10
13.776021
 20
12.17534
 30
0.0
 11
13.805128
 21
12.153072
 31
0.0
  0
LINE
  8
CLIP
 10
13.936024
 20
12.387934
 30
0.0
 11
13.805128
 21
12.346798
 31
0.0
  0
LINE
  8
CLIP
 10
13.936024
 20
12.325104
 30
0.0
 11
13.805128
 21
12.283968
 31
0.0
  0
LINE
  8
CLIP
 10
13.962801
 20
12.364934
 30
0.0
 11
13.936024
 21
12.325104
 31
0.0
  0
LINE
  8
CLIP
 10
13.936024
 20
12.387934
 30
0.0
 11
13.962801
 21
12.364934
 31
0.0
  0
LINE
  8
CLIP
 10
13.805128
 20
12.346798
 30
0.0
 11
13.776021
 21
12.306236
 31
0.0
  0
LINE
  8
CLIP
 10
13.776021
 20
12.306236
 30
0.0
 11
13.805128
 21
12.283968
 31
0.0
  0
LINE
  8
CLIP
 10
13.936024
 20
12.51883
 30
0.0
 11
13.805128
 21
12.477694
 31
0.0
  0
LINE
  8
CLIP
 10
13.936024
 20
12.456
 30
0.0
 11
13.805128
 21
12.414864
 31
0.0
  0
LINE
  8
CLIP
 10
13.962801
 20
12.49583
 30
0.0
 11
13.936024
 21
12.456
 31
0.0
  0
LINE
  8
CLIP
 10
13.936024
 20
12.51883
 30
0.0
 11
13.962801
 21
12.49583
 31
0.0
  0
LINE
  8
CLIP
 10
13.805128
 20
12.477694
 30
0.0
 11
13.776021
 21
12.437132
 31
0.0
  0
LINE
  8
CLIP
 10
13.776021
 20
12.437132
 30
0.0
 11
13.805128
 21
12.414864
 31
0.0
  0
LINE
  8
CLIP
 10
13.936024
 20
12.649726
 30
0.0
 11
13.805128
 21
12.60859
 31
0.0
  0
LINE
  8
CLIP
 10
13.936024
 20
12.586896
 30
0.0
 11
13.805128
 21
12.54576
 31
0.0
  0
LINE
  8
CLIP
 10
13.962801
 20
12.626726
 30
0.0
 11
13.936024
 21
12.586896
 31
0.0
  0
LINE
  8
CLIP
 10
13.936024
 20
12.649726
 30
0.0
 11
13.962801
 21
12.626726
 31
0.0
  0
LINE
  8
CLIP
 10
13.805128
 20
12.60859
 30
0.0
 11
13.776021
 21
12.568028
 31
0.0
  0
LINE
  8
CLIP
 10
13.936024
 20
12.780622
 30
0.0
 11
13.805128
 21
12.739486
 31
0.0
  0
LINE
  8
CLIP
 10
13.936024
 20
12.717792
 30
0.0
 11
13.805128
 21
12.676656
 31
0.0
  0
LINE
  8
CLIP
 10
13.962801
 20
12.757622
 30
0.0
 11
13.936024
 21
12.717792
 31
0.0
  0
LINE
  8
CLIP
 10
13.936024
 20
12.780622
 30
0.0
 11
13.962801
 21
12.757622
 31
0.0
  0
LINE
  8
CLIP
 10
13.805128
 20
12.739486
 30
0.0
 11
13.776021
 21
12.698924
 31
0.0
  0
LINE
  8
CLIP
 10
13.776021
 20
12.698924
 30
0.0
 11
13.805128
 21
12.676656
 31
0.0
  0
LINE
  8
CLIP
 10
13.936024
 20
12.911518
 30
0.0
 11
13.805128
 21
12.870382
 31
0.0
  0
LINE
  8
CLIP
 10
13.936024
 20
12.848688
 30
0.0
 11
13.805128
 21
12.807552
 31
0.0
  0
LINE
  8
CLIP
 10
13.962801
 20
12.888518
 30
0.0
 11
13.936024
 21
12.848688
 31
0.0
  0
LINE
  8
CLIP
 10
13.936024
 20
12.911518
 30
0.0
 11
13.962801
 21
12.888518
 31
0.0
  0
LINE
  8
CLIP
 10
13.805128
 20
12.870382
 30
0.0
 11
13.776021
 21
12.82982
 31
0.0
  0
LINE
  8
CLIP
 10
13.776021
 20
12.82982
 30
0.0
 11
13.805128
 21
12.807552
 31
0.0
  0
LINE
  8
CLIP
 10
13.936024
 20
13.042414
 30
0.0
 11
13.805128
 21
13.001278
 31
0.0
  0
LINE
  8
CLIP
 10
13.936024
 20
12.979584
 30
0.0
 11
13.805128
 21
12.938448
 31
0.0
  0
LINE
  8
CLIP
 10
13.962801
 20
13.019414
 30
0.0
 11
13.936024
 21
12.979584
 31
0.0
  0
LINE
  8
CLIP
 10
13.805128
 20
13.001278
 30
0.0
 11
13.776021
 21
12.960716
 31
0.0
  0
LINE
  8
CLIP
 10
13.776021
 20
12.960716
 30
0.0
 11
13.805128
 21
12.938448
 31
0.0
  0
LINE
  8
CLIP
 10
13.936024
 20
13.17331
 30
0.0
 11
13.805128
 21
13.132174
 31
0.0
  0
LINE
  8
CLIP
 10
13.936024
 20
13.11048
 30
0.0
 11
13.805128
 21
13.069344
 31
0.0
  0
LINE
  8
CLIP
 10
13.962801
 20
13.15031
 30
0.0
 11
13.936024
 21
13.11048
 31
0.0
  0
LINE
  8
CLIP
 10
13.936024
 20
13.17331
 30
0.0
 11
13.962801
 21
13.15031
 31
0.0
  0
LINE
  8
CLIP
 10
13.805128
 20
13.132174
 30
0.0
 11
13.776021
 21
13.091612
 31
0.0
  0
LINE
  8
CLIP
 10
13.776021
 20
13.091612
 30
0.0
 11
13.805128
 21
13.069344
 31
0.0
  0
LINE
  8
CLIP
 10
13.936024
 20
13.304206
 30
0.0
 11
13.805128
 21
13.26307
 31
0.0
  0
LINE
  8
CLIP
 10
13.936024
 20
13.241376
 30
0.0
 11
13.805128
 21
13.20024
 31
0.0
  0
LINE
  8
CLIP
 10
13.962801
 20
13.281206
 30
0.0
 11
13.936024
 21
13.241376
 31
0.0
  0
LINE
  8
CLIP
 10
13.936024
 20
13.304206
 30
0.0
 11
13.962801
 21
13.281206
 31
0.0
  0
LINE
  8
CLIP
 10
13.805128
 20
13.26307
 30
0.0
 11
13.776021
 21
13.222508
 31
0.0
  0
LINE
  8
CLIP
 10
13.776021
 20
13.222508
 30
0.0
 11
13.805128
 21
13.20024
 31
0.0
  0
LINE
  8
CLIP
 10
13.927112
 20
13.432301
 30
0.0
 11
13.805128
 21
13.393966
 31
0.0
  0
LINE
  8
CLIP
 10
13.936024
 20
13.372272
 30
0.0
 11
13.805128
 21
13.331136
 31
0.0
  0
LINE
  8
CLIP
 10
13.962801
 20
13.412102
 30
0.0
 11
13.936024
 21
13.372272
 31
0.0
  0
LINE
  8
CLIP
 10
13.805128
 20
13.393966
 30
0.0
 11
13.776021
 21
13.353404
 31
0.0
  0
LINE
  8
CLIP
 10
13.776021
 20
13.353404
 30
0.0
 11
13.805128
 21
13.331136
 31
0.0
  0
LINE
  8
CLIP
 10
13.936024
 20
12.257038
 30
0.0
 11
13.936024
 21
12.325104
 31
0.0
  0
LINE
  8
CLIP
 10
13.805128
 20
12.215902
 30
0.0
 11
13.805128
 21
12.283968
 31
0.0
  0
LINE
  8
CLIP
 10
13.805128
 20
12.346798
 30
0.0
 11
13.805128
 21
12.414864
 31
0.0
  0
LINE
  8
CLIP
 10
13.936024
 20
12.387934
 30
0.0
 11
13.936024
 21
12.456
 31
0.0
  0
LINE
  8
CLIP
 10
13.936024
 20
12.51883
 30
0.0
 11
13.936024
 21
12.586896
 31
0.0
  0
LINE
  8
CLIP
 10
13.805128
 20
12.477694
 30
0.0
 11
13.805128
 21
12.54576
 31
0.0
  0
LINE
  8
CLIP
 10
13.936024
 20
12.649726
 30
0.0
 11
13.936024
 21
12.717792
 31
0.0
  0
LINE
  8
CLIP
 10
13.805128
 20
12.60859
 30
0.0
 11
13.805128
 21
12.676656
 31
0.0
  0
LINE
  8
CLIP
 10
13.936024
 20
12.780622
 30
0.0
 11
13.936024
 21
12.848688
 31
0.0
  0
LINE
  8
CLIP
 10
13.805128
 20
12.739486
 30
0.0
 11
13.805128
 21
12.807552
 31
0.0
  0
LINE
  8
CLIP
 10
13.936024
 20
12.911518
 30
0.0
 11
13.936024
 21
12.979584
 31
0.0
  0
LINE
  8
CLIP
 10
13.805128
 20
12.870382
 30
0.0
 11
13.805128
 21
12.938448
 31
0.0
  0
LINE
  8
CLIP
 10
13.936024
 20
13.042414
 30
0.0
 11
13.936024
 21
13.11048
 31
0.0
  0
LINE
  8
CLIP
 10
13.805128
 20
13.001278
 30
0.0
 11
13.805128
 21
13.069344
 31
0.0
  0
LINE
  8
CLIP
 10
13.936024
 20
13.17331
 30
0.0
 11
13.936024
 21
13.241376
 31
0.0
  0
LINE
  8
CLIP
 10
13.805128
 20
13.132174
 30
0.0
 11
13.805128
 21
13.20024
 31
0.0
  0
LINE
  8
CLIP
 10
13.936024
 20
13.304206
 30
0.0
 11
13.936024
 21
13.372272
 31
0.0
  0
LINE
  8
CLIP
 10
13.805128
 20
13.26307
 30
0.0
 11
13.805128
 21
13.331136
 31
0.0
  0
LINE
  8
CLIP
 10
13.805128
 20
13.393966
 30
0.0
 11
13.805128
 21
13.404367
 31
0.0
  0
LINE
  8
CLIP
 10
13.927112
 20
13.432301
 30
0.0
 11
13.962801
 21
13.412102
 31
0.0
  0
LINE
  8
PANEL
 10
12.708457
 20
11.615149
 30
0.0
 11
9.245378
 21
11.675597
 31
0.0
  0
LINE
  8
CLIP
 10
14.477685
 20
11.937253
 30
0.0
 11
13.521097
 21
11.937253
 31
0.0
  0
LINE
  8
CLIP
 10
13.521097
 20
11.937253
 30
0.0
 11
13.521097
 21
11.148212
 31
0.0
  0
ARC
  8
CLIP
 10
13.44413
 20
11.148212
 30
0.0
 40
0.076967
 50
195.631876
 51
0.0
  0
LINE
  8
CLIP
 10
13.37001
 20
11.127473
 30
0.0
 11
13.269563
 21
11.486462
 31
0.0
  0
LINE
  8
CLIP
 10
13.33601
 20
11.524825
 30
0.0
 11
13.269563
 21
11.486462
 31
0.0
  0
LINE
  8
CLIP
 10
12.893678
 20
11.521425
 30
0.0
 11
12.893678
 21
11.352268
 31
0.0
  0
LINE
  8
CLIP
 10
13.408146
 20
11.080175
 30
0.0
 11
12.893678
 21
11.352268
 31
0.0
  0
LINE
  8
WOOD
 10
21.851122
 20
12.533402
 30
0.0
 11
9.245378
 21
12.533402
 31
0.0
  0
LINE
  8
WOOD
 10
21.851122
 20
12.220902
 30
0.0
 11
9.245378
 21
12.220902
 31
0.0
  0
LINE
  8
WOOD
 10
21.851122
 20
12.845902
 30
0.0
 11
9.245378
 21
12.845902
 31
0.0
  0
LINE
  8
DIM
 10
18.332317
 20
22.371955
 30
0.0
 11
17.472007
 21
22.355302
 31
0.0
  0
TEXT
  8
DIM
 10
11.003121
 20
22.420695
 30
0.0
 40
0.375
  1
INTEGRAL PANEL CLIP
  7
ROMAND
 72
     2
 11
17.235264
 21
22.420695
 31
0.0
  0
LINE
  8
CLIP
 10
13.776021
 20
12.568028
 30
0.0
 11
13.805128
 21
12.54576
 31
0.0
  0
LINE
  8
CLIP
 10
13.936024
 20
13.042414
 30
0.0
 11
13.962801
 21
13.019414
 31
0.0
  0
LINE
  8
PANEL
 10
12.729631
 20
11.833324
 30
0.0
 11
12.420443
 21
11.833324
 31
0.0
  0
ARC
  8
PANEL
 10
12.729631
 20
11.768454
 30
0.0
 40
0.06487
 50
5.0
 51
90.0
  0
LINE
  8
PANEL
 10
12.91339
 20
10.412386
 30
0.0
 11
12.794254
 21
11.774108
 31
0.0
  0
ARC
  8
PANEL
 10
13.010389
 20
10.420873
 30
0.0
 40
0.09737
 50
185.0
 51
271.0
  0
LINE
  8
PANEL
 10
14.360375
 20
10.347052
 30
0.0
 11
13.012088
 21
10.323518
 31
0.0
  0
ARC
  8
PANEL
 10
14.358676
 20
10.444407
 30
0.0
 40
0.09737
 50
271.0
 51
356.0
  0
LINE
  8
PANEL
 10
14.557076
 20
11.885811
 30
0.0
 11
14.455809
 21
10.437615
 31
0.0
  0
ARC
  8
PANEL
 10
14.621788
 20
11.881286
 30
0.0
 40
0.06487
 50
89.926498
 51
176.0
  0
ARC
  8
PANEL
 10
12.708381
 20
11.668579
 30
0.0
 40
0.05343
 50
270.081321
 51
0.081321
  0
LINE
  8
PANEL
 10
12.320076
 20
11.77965
 30
0.0
 11
12.713132
 21
11.72441
 31
0.0
  0
ARC
  8
PANEL
 10
12.329893
 20
11.834631
 30
0.0
 40
0.05655
 50
90.0
 51
263.0
  0
LINE
  8
PANEL
 10
12.329904
 20
11.891174
 30
0.0
 11
13.015718
 21
11.891174
 31
0.0
  0
ARC
  8
PANEL
 10
13.015718
 20
11.940704
 30
0.0
 40
0.04953
 50
270.0
 51
324.874582
  0
ARC
  8
PANEL
 10
13.12389
 20
11.864609
 30
0.0
 40
0.082726
 50
35.125418
 51
144.874582
  0
ARC
  8
PANEL
 10
13.232061
 20
11.940704
 30
0.0
 40
0.04953
 50
215.125418
 51
270.0
  0
LINE
  8
PANEL
 10
13.232061
 20
11.891174
 30
0.0
 11
13.398684
 21
11.891174
 31
0.0
  0
LINE
  8
PANEL
 10
13.431309
 20
11.857975
 30
0.0
 11
13.418635
 21
11.13191
 31
0.0
  0
ARC
  8
PANEL
 10
13.398684
 20
11.858544
 30
0.0
 40
0.03263
 50
359.0
 51
90.0
  0
ARC
  8
PANEL
 10
12.708378
 20
11.671123
 30
0.0
 40
0.05265
 50
0.081321
 51
82.0
  0
LINE
  8
PANEL
 10
14.621871
 20
11.946156
 30
0.0
 11
21.935988
 21
11.912252
 31
0.0
  0
ARC
  8
PANEL
 10
22.400901
 20
21.363646
 30
0.0
 40
0.05265
 50
188.0
 51
269.918679
  0
ARC
  8
PANEL
 10
22.21348
 20
20.673341
 30
0.0
 40
0.03263
 50
180.0
 51
271.0
  0
LINE
  8
PANEL
 10
22.214049
 20
20.640716
 30
0.0
 11
22.940114
 21
20.653389
 31
0.0
  0
LINE
  8
PANEL
 10
22.18085
 20
20.839963
 30
0.0
 11
22.18085
 21
20.673341
 31
0.0
  0
ARC
  8
PANEL
 10
22.13132
 20
20.839963
 30
0.0
 40
0.04953
 50
0.0
 51
54.874582
  0
ARC
  8
PANEL
 10
22.207416
 20
20.948135
 30
0.0
 40
0.082726
 50
125.125418
 51
234.874582
  0
ARC
  8
PANEL
 10
22.13132
 20
21.056306
 30
0.0
 40
0.04953
 50
305.125418
 51
0.0
  0
LINE
  8
PANEL
 10
22.18085
 20
21.74212
 30
0.0
 11
22.18085
 21
21.056306
 31
0.0
  0
ARC
  8
PANEL
 10
22.237393
 20
21.742131
 30
0.0
 40
0.05655
 50
7.0
 51
180.0
  0
LINE
  8
PANEL
 10
22.292374
 20
21.751949
 30
0.0
 11
22.347614
 21
21.358892
 31
0.0
  0
ARC
  8
PANEL
 10
22.403446
 20
21.363643
 30
0.0
 40
0.05343
 50
269.918679
 51
359.918679
  0
ARC
  8
PANEL
 10
22.190738
 20
19.450236
 30
0.0
 40
0.06487
 50
94.0
 51
180.073502
  0
LINE
  8
PANEL
 10
22.186213
 20
19.514948
 30
0.0
 11
23.634409
 21
19.616216
 31
0.0
  0
ARC
  8
PANEL
 10
23.627617
 20
19.713348
 30
0.0
 40
0.09737
 50
274.0
 51
359.0
  0
LINE
  8
PANEL
 10
23.724972
 20
19.711649
 30
0.0
 11
23.748506
 21
21.059936
 31
0.0
  0
ARC
  8
PANEL
 10
23.651151
 20
21.061635
 30
0.0
 40
0.09737
 50
359.0
 51
85.0
  0
LINE
  8
PANEL
 10
23.659638
 20
21.158635
 30
0.0
 11
22.297916
 21
21.27777
 31
0.0
  0
ARC
  8
PANEL
 10
22.30357
 20
21.342393
 30
0.0
 40
0.06487
 50
180.0
 51
265.0
  0
LINE
  8
PANEL
 10
22.2387
 20
21.342393
 30
0.0
 11
22.2387
 21
21.651582
 31
0.0
  0
LINE
  8
CLIP
 10
21.02961
 20
20.136
 30
0.0
 11
21.052611
 21
20.109223
 31
0.0
  0
LINE
  8
CLIP
 10
21.503996
 20
20.296003
 30
0.0
 11
21.526264
 21
20.266896
 31
0.0
  0
LINE
  8
CLIP
 10
22.991849
 20
20.663878
 30
0.0
 11
22.719756
 21
21.178346
 31
0.0
  0
LINE
  8
CLIP
 10
22.550599
 20
21.178346
 30
0.0
 11
22.719756
 21
21.178346
 31
0.0
  0
LINE
  8
CLIP
 10
22.5472
 20
20.736014
 30
0.0
 11
22.585563
 21
20.802461
 31
0.0
  0
LINE
  8
CLIP
 10
22.944551
 20
20.702014
 30
0.0
 11
22.585563
 21
20.802461
 31
0.0
  0
ARC
  8
CLIP
 10
22.923812
 20
20.627894
 30
0.0
 40
0.076967
 50
270.0
 51
74.368124
  0
LINE
  8
CLIP
 10
22.134771
 20
20.550927
 30
0.0
 11
22.923812
 21
20.550927
 31
0.0
  0
LINE
  8
CLIP
 10
22.134771
 20
19.594339
 30
0.0
 11
22.134771
 21
20.550927
 31
0.0
  0
LINE
  8
CLIP
 10
20.639723
 20
20.144912
 30
0.0
 11
20.659923
 21
20.109223
 31
0.0
  0
LINE
  8
CLIP
 10
20.678058
 20
20.266896
 30
0.0
 11
20.667657
 21
20.266896
 31
0.0
  0
LINE
  8
CLIP
 10
20.808954
 20
20.266896
 30
0.0
 11
20.740888
 21
20.266896
 31
0.0
  0
LINE
  8
CLIP
 10
20.767818
 20
20.136
 30
0.0
 11
20.699752
 21
20.136
 31
0.0
  0
LINE
  8
CLIP
 10
20.93985
 20
20.266896
 30
0.0
 11
20.871784
 21
20.266896
 31
0.0
  0
LINE
  8
CLIP
 10
20.898714
 20
20.136
 30
0.0
 11
20.830648
 21
20.136
 31
0.0
  0
LINE
  8
CLIP
 10
21.070746
 20
20.266896
 30
0.0
 11
21.00268
 21
20.266896
 31
0.0
  0
LINE
  8
CLIP
 10
21.02961
 20
20.136
 30
0.0
 11
20.961544
 21
20.136
 31
0.0
  0
LINE
  8
CLIP
 10
21.201642
 20
20.266896
 30
0.0
 11
21.133576
 21
20.266896
 31
0.0
  0
LINE
  8
CLIP
 10
21.160506
 20
20.136
 30
0.0
 11
21.09244
 21
20.136
 31
0.0
  0
LINE
  8
CLIP
 10
21.332538
 20
20.266896
 30
0.0
 11
21.264472
 21
20.266896
 31
0.0
  0
LINE
  8
CLIP
 10
21.291402
 20
20.136
 30
0.0
 11
21.223336
 21
20.136
 31
0.0
  0
LINE
  8
CLIP
 10
21.463434
 20
20.266896
 30
0.0
 11
21.395368
 21
20.266896
 31
0.0
  0
LINE
  8
CLIP
 10
21.422298
 20
20.136
 30
0.0
 11
21.354232
 21
20.136
 31
0.0
  0
LINE
  8
CLIP
 10
21.59433
 20
20.266896
 30
0.0
 11
21.526264
 21
20.266896
 31
0.0
  0
LINE
  8
CLIP
 10
21.553194
 20
20.136
 30
0.0
 11
21.485128
 21
20.136
 31
0.0
  0
LINE
  8
CLIP
 10
21.68409
 20
20.136
 30
0.0
 11
21.616024
 21
20.136
 31
0.0
  0
LINE
  8
CLIP
 10
21.725226
 20
20.266896
 30
0.0
 11
21.65716
 21
20.266896
 31
0.0
  0
LINE
  8
CLIP
 10
21.856122
 20
20.266896
 30
0.0
 11
21.788056
 21
20.266896
 31
0.0
  0
LINE
  8
CLIP
 10
21.814986
 20
20.136
 30
0.0
 11
21.74692
 21
20.136
 31
0.0
  0
LINE
  8
CLIP
 10
20.71862
 20
20.296003
 30
0.0
 11
20.740888
 21
20.266896
 31
0.0
  0
LINE
  8
CLIP
 10
20.678058
 20
20.266896
 30
0.0
 11
20.71862
 21
20.296003
 31
0.0
  0
LINE
  8
CLIP
 10
20.659923
 20
20.109223
 30
0.0
 11
20.699752
 21
20.136
 31
0.0
  0
LINE
  8
CLIP
 10
20.699752
 20
20.136
 30
0.0
 11
20.740888
 21
20.266896
 31
0.0
  0
LINE
  8
CLIP
 10
20.639723
 20
20.144912
 30
0.0
 11
20.678058
 21
20.266896
 31
0.0
  0
LINE
  8
CLIP
 10
20.849516
 20
20.296003
 30
0.0
 11
20.871784
 21
20.266896
 31
0.0
  0
LINE
  8
CLIP
 10
20.808954
 20
20.266896
 30
0.0
 11
20.849516
 21
20.296003
 31
0.0
  0
LINE
  8
CLIP
 10
20.767818
 20
20.136
 30
0.0
 11
20.790819
 21
20.109223
 31
0.0
  0
LINE
  8
CLIP
 10
20.790819
 20
20.109223
 30
0.0
 11
20.830648
 21
20.136
 31
0.0
  0
LINE
  8
CLIP
 10
20.830648
 20
20.136
 30
0.0
 11
20.871784
 21
20.266896
 31
0.0
  0
LINE
  8
CLIP
 10
20.767818
 20
20.136
 30
0.0
 11
20.808954
 21
20.266896
 31
0.0
  0
LINE
  8
CLIP
 10
20.980412
 20
20.296003
 30
0.0
 11
21.00268
 21
20.266896
 31
0.0
  0
LINE
  8
CLIP
 10
20.93985
 20
20.266896
 30
0.0
 11
20.980412
 21
20.296003
 31
0.0
  0
LINE
  8
CLIP
 10
20.898714
 20
20.136
 30
0.0
 11
20.921715
 21
20.109223
 31
0.0
  0
LINE
  8
CLIP
 10
20.921715
 20
20.109223
 30
0.0
 11
20.961544
 21
20.136
 31
0.0
  0
LINE
  8
CLIP
 10
20.961544
 20
20.136
 30
0.0
 11
21.00268
 21
20.266896
 31
0.0
  0
LINE
  8
CLIP
 10
20.898714
 20
20.136
 30
0.0
 11
20.93985
 21
20.266896
 31
0.0
  0
LINE
  8
CLIP
 10
21.111308
 20
20.296003
 30
0.0
 11
21.133576
 21
20.266896
 31
0.0
  0
LINE
  8
CLIP
 10
21.070746
 20
20.266896
 30
0.0
 11
21.111308
 21
20.296003
 31
0.0
  0
LINE
  8
CLIP
 10
21.052611
 20
20.109223
 30
0.0
 11
21.09244
 21
20.136
 31
0.0
  0
LINE
  8
CLIP
 10
21.09244
 20
20.136
 30
0.0
 11
21.133576
 21
20.266896
 31
0.0
  0
LINE
  8
CLIP
 10
21.02961
 20
20.136
 30
0.0
 11
21.070746
 21
20.266896
 31
0.0
  0
LINE
  8
CLIP
 10
21.242204
 20
20.296003
 30
0.0
 11
21.264472
 21
20.266896
 31
0.0
  0
LINE
  8
CLIP
 10
21.201642
 20
20.266896
 30
0.0
 11
21.242204
 21
20.296003
 31
0.0
  0
LINE
  8
CLIP
 10
21.160506
 20
20.136
 30
0.0
 11
21.183507
 21
20.109223
 31
0.0
  0
LINE
  8
CLIP
 10
21.183507
 20
20.109223
 30
0.0
 11
21.223336
 21
20.136
 31
0.0
  0
LINE
  8
CLIP
 10
21.223336
 20
20.136
 30
0.0
 11
21.264472
 21
20.266896
 31
0.0
  0
LINE
  8
CLIP
 10
21.160506
 20
20.136
 30
0.0
 11
21.201642
 21
20.266896
 31
0.0
  0
LINE
  8
CLIP
 10
21.3731
 20
20.296003
 30
0.0
 11
21.395368
 21
20.266896
 31
0.0
  0
LINE
  8
CLIP
 10
21.332538
 20
20.266896
 30
0.0
 11
21.3731
 21
20.296003
 31
0.0
  0
LINE
  8
CLIP
 10
21.291402
 20
20.136
 30
0.0
 11
21.314403
 21
20.109223
 31
0.0
  0
LINE
  8
CLIP
 10
21.314403
 20
20.109223
 30
0.0
 11
21.354232
 21
20.136
 31
0.0
  0
LINE
  8
CLIP
 10
21.354232
 20
20.136
 30
0.0
 11
21.395368
 21
20.266896
 31
0.0
  0
LINE
  8
CLIP
 10
21.291402
 20
20.136
 30
0.0
 11
21.332538
 21
20.266896
 31
0.0
  0
LINE
  8
CLIP
 10
21.463434
 20
20.266896
 30
0.0
 11
21.503996
 21
20.296003
 31
0.0
  0
LINE
  8
CLIP
 10
21.422298
 20
20.136
 30
0.0
 11
21.445299
 21
20.109223
 31
0.0
  0
LINE
  8
CLIP
 10
21.445299
 20
20.109223
 30
0.0
 11
21.485128
 21
20.136
 31
0.0
  0
LINE
  8
CLIP
 10
21.485128
 20
20.136
 30
0.0
 11
21.526264
 21
20.266896
 31
0.0
  0
LINE
  8
CLIP
 10
21.422298
 20
20.136
 30
0.0
 11
21.463434
 21
20.266896
 31
0.0
  0
LINE
  8
CLIP
 10
21.634892
 20
20.296003
 30
0.0
 11
21.65716
 21
20.266896
 31
0.0
  0
LINE
  8
CLIP
 10
21.59433
 20
20.266896
 30
0.0
 11
21.634892
 21
20.296003
 31
0.0
  0
LINE
  8
CLIP
 10
21.553194
 20
20.136
 30
0.0
 11
21.576195
 21
20.109223
 31
0.0
  0
LINE
  8
CLIP
 10
21.576195
 20
20.109223
 30
0.0
 11
21.616024
 21
20.136
 31
0.0
  0
LINE
  8
CLIP
 10
21.616024
 20
20.136
 30
0.0
 11
21.65716
 21
20.266896
 31
0.0
  0
LINE
  8
CLIP
 10
21.553194
 20
20.136
 30
0.0
 11
21.59433
 21
20.266896
 31
0.0
  0
LINE
  8
CLIP
 10
21.765788
 20
20.296003
 30
0.0
 11
21.788056
 21
20.266896
 31
0.0
  0
LINE
  8
CLIP
 10
21.725226
 20
20.266896
 30
0.0
 11
21.765788
 21
20.296003
 31
0.0
  0
LINE
  8
CLIP
 10
21.68409
 20
20.136
 30
0.0
 11
21.707091
 21
20.109223
 31
0.0
  0
LINE
  8
CLIP
 10
21.707091
 20
20.109223
 30
0.0
 11
21.74692
 21
20.136
 31
0.0
  0
LINE
  8
CLIP
 10
21.74692
 20
20.136
 30
0.0
 11
21.788056
 21
20.266896
 31
0.0
  0
LINE
  8
CLIP
 10
21.68409
 20
20.136
 30
0.0
 11
21.725226
 21
20.266896
 31
0.0
  0
LINE
  8
CLIP
 10
21.896684
 20
20.296003
 30
0.0
 11
21.918952
 21
20.266896
 31
0.0
  0
LINE
  8
CLIP
 10
21.856122
 20
20.266896
 30
0.0
 11
21.896684
 21
20.296003
 31
0.0
  0
LINE
  8
CLIP
 10
21.814986
 20
20.136
 30
0.0
 11
21.837987
 21
20.109223
 31
0.0
  0
LINE
  8
CLIP
 10
21.837987
 20
20.109223
 30
0.0
 11
21.877816
 21
20.136
 31
0.0
  0
LINE
  8
CLIP
 10
21.877816
 20
20.136
 30
0.0
 11
21.918952
 21
20.266896
 31
0.0
  0
LINE
  8
CLIP
 10
21.814986
 20
20.136
 30
0.0
 11
21.856122
 21
20.266896
 31
0.0
  0
LINE
  8
CLIP
 10
21.987018
 20
20.266896
 30
0.0
 11
21.918952
 21
20.266896
 31
0.0
  0
LINE
  8
CLIP
 10
21.945882
 20
20.136
 30
0.0
 11
21.877816
 21
20.136
 31
0.0
  0
LINE
  8
CLIP
 10
22.02758
 20
20.296003
 30
0.0
 11
22.049848
 21
20.266896
 31
0.0
  0
LINE
  8
CLIP
 10
21.987018
 20
20.266896
 30
0.0
 11
22.02758
 21
20.296003
 31
0.0
  0
LINE
  8
CLIP
 10
21.968883
 20
20.109223
 30
0.0
 11
22.008712
 21
20.136
 31
0.0
  0
LINE
  8
CLIP
 10
21.945882
 20
20.136
 30
0.0
 11
21.968883
 21
20.109223
 31
0.0
  0
LINE
  8
CLIP
 10
21.945882
 20
20.136
 30
0.0
 11
21.987018
 21
20.266896
 31
0.0
  0
LINE
  8
CLIP
 10
22.008712
 20
20.136
 30
0.0
 11
22.049848
 21
20.266896
 31
0.0
  0
LINE
  8
CLIP
 10
22.134771
 20
20.136
 30
0.0
 11
22.008712
 21
20.136
 31
0.0
  0
LINE
  8
CLIP
 10
22.134771
 20
20.266896
 30
0.0
 11
22.049848
 21
20.266896
 31
0.0
  0
LINE
  8
CLIP
 10
20.457731
 20
20.201448
 30
0.0
 11
20.639723
 21
20.144912
 31
0.0
  0
LINE
  8
CLIP
 10
20.457731
 20
20.201448
 30
0.0
 11
20.667657
 21
20.266896
 31
0.0
  0
ARC
  8
CLIP
 10
21.661316
 20
20.201898
 30
0.0
 40
0.567625
 50
339.714502
 51
20.285498
  0
LINE
  8
CLIP
 10
22.134771
 20
20.005104
 30
0.0
 11
22.193736
 21
20.005104
 31
0.0
  0
LINE
  8
CLIP
 10
22.134771
 20
20.398693
 30
0.0
 11
22.193736
 21
20.398693
 31
0.0
  0
LINE
  8
CLIP
 10
21.315491
 20
20.112688
 30
0.0
 11
21.313654
 21
20.110095
 31
0.0
  0
LINE
  8
PANEL
 10
22.456875
 20
21.363567
 30
0.0
 11
22.384167
 21
25.529055
 31
0.0
  0
LINE
  8
PANEL
 10
22.125868
 20
19.450153
 30
0.0
 11
22.189499
 21
12.297419
 31
0.0
  0
SOLID
  8
DIM
 10
22.686553
 20
22.639049
 30
0.0
 11
22.662475
 21
22.718829
 31
0.0
 12
22.435176
 22
22.606707
 32
0.0
 13
22.435176
 23
22.606707
 33
0.0
  0
LINE
  8
DIM
 10
22.674514
 20
22.678939
 30
0.0
 11
25.214344
 21
23.445457
 31
0.0
  0
LINE
  8
DIM
 10
25.214344
 20
23.445457
 30
0.0
 11
26.151833
 21
23.445457
 31
0.0
  0
TEXT
  8
DIM
 10
26.401833
 20
23.257957
 30
0.0
 40
0.375
  1
INTEGRAL BATTEN PANEL
  7
ROMAND
  0
LINE
  8
DIM
 10
22.612105
 20
10.0668
 30
0.0
 11
23.368985
 21
7.2006
 31
0.0
  0
TEXT
  8
DIM
 10
24.600049
 20
7.282726
 30
0.0
 40
0.375
  1
PA-801 OUTSIDE CORNER FLASHING
  7
ROMAND
  0
LINE
  8
DIM
 10
23.368985
 20
7.2006
 30
0.0
 11
24.107624
 21
7.2006
 31
0.0
  0
TEXT
  8
DIM
 10
24.593746
 20
6.679314
 30
0.0
 40
0.375
  1
W/ "Z" CLOSURES
  7
ROMAND
  0
SOLID
  8
DIM
 10
22.57182
 20
10.056161
 30
0.0
 11
22.652391
 21
10.077438
 31
0.0
 12
22.548276
 22
10.308514
 32
0.0
 13
22.548276
 23
10.308514
 33
0.0
  0
LINE
  8
FLASH
 10
19.34662
 20
10.308514
 30
0.0
 11
23.78412
 21
10.308514
 31
0.0
  0
LINE
  8
FLASH
  6
CONTINUOUS
 10
20.452538
 20
10.372689
 30
0.0
 11
20.444059
 21
11.781393
 31
0.0
  0
ARC
  8
FLASH
 10
19.34662
 20
10.371014
 30
0.0
 40
0.0625
 50
90.0
 51
270.0
  0
LINE
  8
FLASH
 10
19.34662
 20
10.433514
 30
0.0
 11
19.78412
 21
10.433514
 31
0.0
  0
LINE
  8
FLASH
 10
20.452538
 20
10.372689
 30
0.0
 11
19.426783
 21
10.372689
 31
0.0
  0
SOLID
  8
0
 10
21.176394
 20
11.787029
 30
0.0
 11
20.602872
 21
11.783576
 31
0.0
 12
21.175684
 22
11.892777
 32
0.0
 13
20.602165
 23
11.888928
 33
0.0
  0
SOLID
  8
DIM
 10
20.718285
 20
12.151668
 30
0.0
 11
20.639186
 21
12.125442
 31
0.0
 12
20.757415
 22
11.901259
 32
0.0
 13
20.757415
 23
11.901259
 33
0.0
  0
LINE
  8
FLASH
  6
CONTINUOUS
 10
21.48379
 20
11.787651
 30
0.0
 11
20.444059
 21
11.781393
 31
0.0
  0
LINE
  8
DIM
 10
20.678735
 20
12.138555
 30
0.0
 11
19.549329
 21
15.544795
 31
0.0
  0
LINE
  8
DIM
 10
19.549329
 20
15.544795
 30
0.0
 11
18.960027
 21
15.544795
 31
0.0
  0
TEXT
  8
DIM
 10
16.388599
 20
15.357295
 30
0.0
 40
0.375
  1
SEALANT
  7
ROMAND
  0
LINE
  8
DIM
 10
23.58744
 20
15.89228
 30
0.0
 11
24.437993
 21
15.89228
 31
0.0
  0
TEXT
  8
DIM
 10
24.631706
 20
15.708837
 30
0.0
 40
0.375
  1
FIELD-FORMED PANEL
  7
ROMAND
  0
LINE
  8
FLASH
  6
CONTINUOUS
 10
23.713649
 20
13.64836
 30
0.0
 11
22.321599
 21
13.649417
 31
0.0
  0
LINE
  8
FLASH
  6
CONTINUOUS
 10
22.320751
 20
12.533593
 30
0.0
 11
22.321599
 21
13.649417
 31
0.0
  0
SOLID
  8
0
 10
22.320862
 20
12.938899
 30
0.0
 11
22.321298
 21
13.512431
 31
0.0
 12
22.215112
 22
12.939052
 32
0.0
 13
22.215944
 23
13.512583
 33
0.0
  0
LINE
  8
FLASH
 10
23.78412
 20
14.746014
 30
0.0
 11
23.78412
 21
10.308514
 31
0.0
  0
LINE
  8
FLASH
 10
23.65912
 20
14.746014
 30
0.0
 11
23.65912
 21
14.308514
 31
0.0
  0
ARC
  8
FLASH
 10
23.72162
 20
14.746014
 30
0.0
 40
0.0625
 50
0.0
 51
180.0
  0
LINE
  8
FLASH
 10
23.713649
 20
13.64836
 30
0.0
 11
23.708254
 21
14.674101
 31
0.0
  0
LINE
  8
WOOD
 10
21.851122
 20
12.845902
 30
0.0
 11
21.851122
 21
25.555286
 31
0.0
  0
LINE
  8
WOOD
 10
21.538622
 20
12.845902
 30
0.0
 11
21.538622
 21
25.555495
 31
0.0
  0
POLYLINE
  8
0
 66
     1
 10
0.0
 20
0.0
 30
0.0
 40
0.05
 41
0.05
  0
VERTEX
  8
0
 10
9.245378
 20
12.030712
 30
0.0
 50
251.0
  0
VERTEX
  8
0
 10
22.041312
 20
12.030712
 30
0.0
  0
VERTEX
  8
0
 10
22.041312
 20
25.55516
 30
0.0
  0
SEQEND
  8
0
  0
TEXT
  8
DIM
 10
11.877828
 20
19.054781
 30
0.0
 40
0.375
  1
PLYWOOD SUBSTRATE
  7
ROMAND
 72
     2
 11
17.949256
 21
19.054781
 31
0.0
  0
TEXT
  8
DIM
 10
13.225363
 20
21.804564
 30
0.0
 40
0.375
  1
W/FASTENERS
  7
ROMAND
 72
     2
 11
17.171791
 21
21.804564
 31
0.0
  0
LINE
  8
CLIP
 10
22.064
 20
13.147819
 30
0.0
 11
22.007843
 21
13.147327
 31
0.0
  0
LINE
  8
CLIP
 10
22.137109
 20
13.256465
 30
0.0
 11
22.080952
 21
13.255972
 31
0.0
  0
LINE
  8
CLIP
 10
22.080952
 20
13.255972
 30
0.0
 11
22.115838
 21
13.148274
 31
0.0
  0
LINE
  8
CLIP
 10
22.064
 20
13.147819
 30
0.0
 11
22.029114
 21
13.255517
 31
0.0
  0
LINE
  8
CLIP
 10
21.773689
 20
13.121255
 30
0.0
 11
21.791851
 21
13.145431
 31
0.0
  0
LINE
  8
CLIP
 10
21.524021
 20
13.143081
 30
0.0
 11
21.49151
 21
13.243446
 31
0.0
  0
LINE
  8
CLIP
 10
21.341766
 20
13.195483
 30
0.0
 11
21.49151
 21
13.243446
 31
0.0
  0
LINE
  8
CLIP
 10
21.683855
 20
13.144483
 30
0.0
 11
21.648968
 21
13.252181
 31
0.0
  0
LINE
  8
CLIP
 10
21.632017
 20
13.144028
 30
0.0
 11
21.59713
 21
13.251726
 31
0.0
  0
LINE
  8
CLIP
 10
21.740013
 20
13.144976
 30
0.0
 11
21.705126
 21
13.252674
 31
0.0
  0
LINE
  8
CLIP
 10
21.575859
 20
13.143536
 30
0.0
 11
21.540972
 21
13.251234
 31
0.0
  0
LINE
  8
CLIP
 10
21.848009
 20
13.145924
 30
0.0
 11
21.791851
 21
13.145431
 31
0.0
  0
LINE
  8
CLIP
 10
21.956005
 20
13.146872
 30
0.0
 11
21.989681
 21
13.123151
 31
0.0
  0
LINE
  8
CLIP
 10
21.989681
 20
13.123151
 30
0.0
 11
22.007843
 21
13.147327
 31
0.0
  0
LINE
  8
CLIP
 10
21.831904
 20
13.27588
 30
0.0
 11
21.86496
 21
13.254077
 31
0.0
  0
LINE
  8
CLIP
 10
21.813122
 20
13.253622
 30
0.0
 11
21.831904
 21
13.27588
 31
0.0
  0
LINE
  8
CLIP
 10
21.848009
 20
13.145924
 30
0.0
 11
21.881685
 21
13.122203
 31
0.0
  0
LINE
  8
CLIP
 10
21.881685
 20
13.122203
 30
0.0
 11
21.899847
 21
13.146379
 31
0.0
  0
LINE
  8
CLIP
 10
21.956005
 20
13.146872
 30
0.0
 11
21.899847
 21
13.146379
 31
0.0
  0
LINE
  8
CLIP
 10
21.921118
 20
13.25457
 30
0.0
 11
21.86496
 21
13.254077
 31
0.0
  0
LINE
  8
CLIP
 10
21.956005
 20
13.146872
 30
0.0
 11
21.921118
 21
13.25457
 31
0.0
  0
LINE
  8
CLIP
 10
21.899847
 20
13.146379
 30
0.0
 11
21.86496
 21
13.254077
 31
0.0
  0
LINE
  8
CLIP
 10
21.848009
 20
13.145924
 30
0.0
 11
21.813122
 21
13.253622
 31
0.0
  0
LINE
  8
CLIP
 10
22.047896
 20
13.277776
 30
0.0
 11
22.080952
 21
13.255972
 31
0.0
  0
LINE
  8
CLIP
 10
22.029114
 20
13.255517
 30
0.0
 11
22.047896
 21
13.277776
 31
0.0
  0
LINE
  8
CLIP
 10
21.9399
 20
13.276828
 30
0.0
 11
21.972956
 21
13.255025
 31
0.0
  0
LINE
  8
CLIP
 10
22.029114
 20
13.255517
 30
0.0
 11
21.972956
 21
13.255025
 31
0.0
  0
LINE
  8
CLIP
 10
21.921118
 20
13.25457
 30
0.0
 11
21.9399
 21
13.276828
 31
0.0
  0
LINE
  8
CLIP
 10
22.007843
 20
13.147327
 30
0.0
 11
21.972956
 21
13.255025
 31
0.0
  0
LINE
  8
CLIP
 10
21.705126
 20
13.252674
 30
0.0
 11
21.648968
 21
13.252181
 31
0.0
  0
LINE
  8
CLIP
 10
21.615913
 20
13.273985
 30
0.0
 11
21.648968
 21
13.252181
 31
0.0
  0
LINE
  8
CLIP
 10
21.59713
 20
13.251726
 30
0.0
 11
21.615913
 21
13.273985
 31
0.0
  0
LINE
  8
CLIP
 10
21.59713
 20
13.251726
 30
0.0
 11
21.540972
 21
13.251234
 31
0.0
  0
LINE
  8
CLIP
 10
21.723909
 20
13.274933
 30
0.0
 11
21.756964
 21
13.253129
 31
0.0
  0
LINE
  8
CLIP
 10
21.705126
 20
13.252674
 30
0.0
 11
21.723909
 21
13.274933
 31
0.0
  0
LINE
  8
CLIP
 10
21.507917
 20
13.273037
 30
0.0
 11
21.540972
 21
13.251234
 31
0.0
  0
LINE
  8
CLIP
 10
21.49151
 20
13.243446
 30
0.0
 11
21.507917
 21
13.273037
 31
0.0
  0
LINE
  8
CLIP
 10
21.791851
 20
13.145431
 30
0.0
 11
21.756964
 21
13.253129
 31
0.0
  0
LINE
  8
CLIP
 10
21.813122
 20
13.253622
 30
0.0
 11
21.756964
 21
13.253129
 31
0.0
  0
LINE
  8
CLIP
 10
21.341766
 20
13.195483
 30
0.0
 11
21.51544
 21
13.143005
 31
0.0
  0
LINE
  8
CLIP
 10
21.632017
 20
13.144028
 30
0.0
 11
21.665694
 21
13.120307
 31
0.0
  0
LINE
  8
CLIP
 10
21.632017
 20
13.144028
 30
0.0
 11
21.575859
 21
13.143536
 31
0.0
  0
LINE
  8
CLIP
 10
21.665694
 20
13.120307
 30
0.0
 11
21.683855
 21
13.144483
 31
0.0
  0
LINE
  8
CLIP
 10
21.740013
 20
13.144976
 30
0.0
 11
21.683855
 21
13.144483
 31
0.0
  0
LINE
  8
CLIP
 10
21.524021
 20
13.143081
 30
0.0
 11
21.51544
 21
13.143005
 31
0.0
  0
LINE
  8
CLIP
 10
21.557698
 20
13.11936
 30
0.0
 11
21.575859
 21
13.143536
 31
0.0
  0
LINE
  8
CLIP
 10
21.524021
 20
13.143081
 30
0.0
 11
21.557698
 21
13.11936
 31
0.0
  0
LINE
  8
CLIP
 10
21.740013
 20
13.144976
 30
0.0
 11
21.773689
 21
13.121255
 31
0.0
  0
LINE
  8
CLIP
 10
22.171996
 20
13.148767
 30
0.0
 11
22.205673
 21
13.125046
 31
0.0
  0
LINE
  8
CLIP
 10
22.205673
 20
13.125046
 30
0.0
 11
22.223834
 21
13.149222
 31
0.0
  0
LINE
  8
CLIP
 10
22.171996
 20
13.148767
 30
0.0
 11
22.115838
 21
13.148274
 31
0.0
  0
LINE
  8
CLIP
 10
22.064
 20
13.147819
 30
0.0
 11
22.097677
 21
13.124098
 31
0.0
  0
LINE
  8
CLIP
 10
22.097677
 20
13.124098
 30
0.0
 11
22.115838
 21
13.148274
 31
0.0
  0
LINE
  8
CLIP
 10
22.321137
 20
13.041328
 30
0.0
 11
22.369786
 21
13.041755
 31
0.0
  0
LINE
  8
CLIP
 10
22.137109
 20
13.256465
 30
0.0
 11
22.155892
 21
13.278724
 31
0.0
  0
LINE
  8
CLIP
 10
22.155892
 20
13.278724
 30
0.0
 11
22.188947
 21
13.25692
 31
0.0
  0
LINE
  8
CLIP
 10
22.318287
 20
13.366059
 30
0.0
 11
22.366936
 21
13.366486
 31
0.0
  0
LINE
  8
CLIP
 10
22.319235
 20
13.258064
 30
0.0
 11
22.188947
 21
13.25692
 31
0.0
  0
LINE
  8
CLIP
 10
22.318287
 20
13.366059
 30
0.0
 11
22.321137
 21
13.041328
 31
0.0
  0
ARC
  8
CLIP
 10
21.929088
 20
13.200266
 30
0.0
 40
0.468338
 50
340.21731
 51
20.788306
  0
LINE
  8
CLIP
 10
22.188947
 20
13.25692
 30
0.0
 11
22.223834
 21
13.149222
 31
0.0
  0
LINE
  8
CLIP
 10
22.137109
 20
13.256465
 30
0.0
 11
22.171996
 21
13.148767
 31
0.0
  0
LINE
  8
CLIP
 10
22.320183
 20
13.150068
 30
0.0
 11
22.223834
 21
13.149222
 31
0.0
  0
LINE
  8
CLIP
 10
20.945308
 20
12.084792
 30
0.0
 11
20.83761
 21
12.119679
 31
0.0
  0
LINE
  8
CLIP
 10
20.837117
 20
12.063521
 30
0.0
 11
20.83761
 21
12.119679
 31
0.0
  0
LINE
  8
CLIP
 10
20.969484
 20
12.102953
 30
0.0
 11
20.945308
 21
12.084792
 31
0.0
  0
LINE
  8
CLIP
 10
20.973275
 20
12.534936
 30
0.0
 11
20.949099
 21
12.516775
 31
0.0
  0
LINE
  8
CLIP
 10
20.840908
 20
12.495504
 30
0.0
 11
20.841401
 21
12.551662
 31
0.0
  0
LINE
  8
CLIP
 10
20.949099
 20
12.516775
 30
0.0
 11
20.841401
 21
12.551662
 31
0.0
  0
LINE
  8
CLIP
 10
20.949554
 20
12.568613
 30
0.0
 11
20.973275
 21
12.534936
 31
0.0
  0
LINE
  8
CLIP
 10
20.949554
 20
12.568613
 30
0.0
 11
20.949629
 21
12.577194
 31
0.0
  0
LINE
  8
CLIP
 10
20.897151
 20
12.750868
 30
0.0
 11
20.949629
 21
12.577194
 31
0.0
  0
LINE
  8
CLIP
 10
20.849189
 20
12.601124
 30
0.0
 11
20.819597
 21
12.584717
 31
0.0
  0
LINE
  8
CLIP
 10
20.819597
 20
12.584717
 30
0.0
 11
20.841401
 21
12.551662
 31
0.0
  0
LINE
  8
CLIP
 10
20.897151
 20
12.750868
 30
0.0
 11
20.849189
 21
12.601124
 31
0.0
  0
LINE
  8
CLIP
 10
20.949554
 20
12.568613
 30
0.0
 11
20.849189
 21
12.601124
 31
0.0
  0
LINE
  8
CLIP
 10
20.947658
 20
12.352621
 30
0.0
 11
20.971379
 21
12.318945
 31
0.0
  0
LINE
  8
CLIP
 10
20.947658
 20
12.352621
 30
0.0
 11
20.948151
 21
12.408779
 31
0.0
  0
LINE
  8
CLIP
 10
20.972327
 20
12.426941
 30
0.0
 11
20.948151
 21
12.408779
 31
0.0
  0
LINE
  8
CLIP
 10
20.948606
 20
12.460617
 30
0.0
 11
20.949099
 21
12.516775
 31
0.0
  0
LINE
  8
CLIP
 10
20.948606
 20
12.460617
 30
0.0
 11
20.972327
 21
12.426941
 31
0.0
  0
LINE
  8
CLIP
 10
20.839012
 20
12.279512
 30
0.0
 11
20.839505
 21
12.33567
 31
0.0
  0
LINE
  8
CLIP
 10
20.947203
 20
12.300783
 30
0.0
 11
20.839505
 21
12.33567
 31
0.0
  0
LINE
  8
CLIP
 10
20.83996
 20
12.387508
 30
0.0
 11
20.817702
 21
12.368726
 31
0.0
  0
LINE
  8
CLIP
 10
20.817702
 20
12.368726
 30
0.0
 11
20.839505
 21
12.33567
 31
0.0
  0
LINE
  8
CLIP
 10
20.840908
 20
12.495504
 30
0.0
 11
20.818649
 21
12.476722
 31
0.0
  0
LINE
  8
CLIP
 10
20.818649
 20
12.476722
 30
0.0
 11
20.840453
 21
12.443666
 31
0.0
  0
LINE
  8
CLIP
 10
20.83996
 20
12.387508
 30
0.0
 11
20.840453
 21
12.443666
 31
0.0
  0
LINE
  8
CLIP
 10
20.838065
 20
12.171517
 30
0.0
 11
20.815806
 21
12.152734
 31
0.0
  0
LINE
  8
CLIP
 10
20.815806
 20
12.152734
 30
0.0
 11
20.83761
 21
12.119679
 31
0.0
  0
LINE
  8
CLIP
 10
20.94671
 20
12.244626
 30
0.0
 11
20.839012
 21
12.279512
 31
0.0
  0
LINE
  8
CLIP
 10
20.946255
 20
12.192788
 30
0.0
 11
20.838557
 21
12.227674
 31
0.0
  0
LINE
  8
CLIP
 10
20.945763
 20
12.13663
 30
0.0
 11
20.838065
 21
12.171517
 31
0.0
  0
LINE
  8
CLIP
 10
20.838065
 20
12.171517
 30
0.0
 11
20.838557
 21
12.227674
 31
0.0
  0
LINE
  8
CLIP
 10
20.945763
 20
12.13663
 30
0.0
 11
20.946255
 21
12.192788
 31
0.0
  0
LINE
  8
CLIP
 10
20.970431
 20
12.210949
 30
0.0
 11
20.946255
 21
12.192788
 31
0.0
  0
LINE
  8
CLIP
 10
20.94671
 20
12.244626
 30
0.0
 11
20.970431
 21
12.210949
 31
0.0
  0
LINE
  8
CLIP
 10
20.839012
 20
12.279512
 30
0.0
 11
20.816754
 21
12.26073
 31
0.0
  0
LINE
  8
CLIP
 10
20.816754
 20
12.26073
 30
0.0
 11
20.838557
 21
12.227674
 31
0.0
  0
LINE
  8
CLIP
 10
20.945763
 20
12.13663
 30
0.0
 11
20.969484
 21
12.102953
 31
0.0
  0
LINE
  8
CLIP
 10
20.94671
 20
12.244626
 30
0.0
 11
20.947203
 21
12.300783
 31
0.0
  0
LINE
  8
CLIP
 10
20.947658
 20
12.352621
 30
0.0
 11
20.83996
 21
12.387508
 31
0.0
  0
LINE
  8
CLIP
 10
20.948606
 20
12.460617
 30
0.0
 11
20.840908
 21
12.495504
 31
0.0
  0
LINE
  8
CLIP
 10
20.948151
 20
12.408779
 30
0.0
 11
20.840453
 21
12.443666
 31
0.0
  0
LINE
  8
CLIP
 10
20.971379
 20
12.318945
 30
0.0
 11
20.947203
 21
12.300783
 31
0.0
  0
LINE
  8
CLIP
 10
20.942567
 20
11.772452
 30
0.0
 11
20.943412
 21
11.8688
 31
0.0
  0
LINE
  8
CLIP
 10
20.836169
 20
11.955525
 30
0.0
 11
20.943867
 21
11.920638
 31
0.0
  0
LINE
  8
CLIP
 10
20.835714
 20
11.903687
 30
0.0
 11
20.943412
 21
11.8688
 31
0.0
  0
ARC
  8
CLIP
 10
20.892369
 20
12.163546
 30
0.0
 40
0.468338
 50
249.211694
 51
289.78269
  0
LINE
  8
CLIP
 10
20.726575
 20
11.774347
 30
0.0
 11
21.051306
 21
11.771497
 31
0.0
  0
LINE
  8
CLIP
 10
20.834571
 20
11.773399
 30
0.0
 11
20.835714
 21
11.903687
 31
0.0
  0
LINE
  8
CLIP
 10
20.726575
 20
11.774347
 30
0.0
 11
20.726148
 21
11.725698
 31
0.0
  0
LINE
  8
CLIP
 10
20.813911
 20
11.936742
 30
0.0
 11
20.835714
 21
11.903687
 31
0.0
  0
LINE
  8
CLIP
 10
20.836169
 20
11.955525
 30
0.0
 11
20.813911
 21
11.936742
 31
0.0
  0
LINE
  8
CLIP
 10
21.051306
 20
11.771497
 30
0.0
 11
21.050879
 21
11.722848
 31
0.0
  0
LINE
  8
CLIP
 10
20.968536
 20
11.994957
 30
0.0
 11
20.94436
 21
11.976796
 31
0.0
  0
LINE
  8
CLIP
 10
20.944815
 20
12.028634
 30
0.0
 11
20.968536
 21
11.994957
 31
0.0
  0
LINE
  8
CLIP
 10
20.943867
 20
11.920638
 30
0.0
 11
20.94436
 21
11.976796
 31
0.0
  0
LINE
  8
CLIP
 10
20.967588
 20
11.886961
 30
0.0
 11
20.943412
 21
11.8688
 31
0.0
  0
LINE
  8
CLIP
 10
20.943867
 20
11.920638
 30
0.0
 11
20.967588
 21
11.886961
 31
0.0
  0
LINE
  8
CLIP
 10
20.837117
 20
12.063521
 30
0.0
 11
20.814858
 21
12.044738
 31
0.0
  0
LINE
  8
CLIP
 10
20.814858
 20
12.044738
 30
0.0
 11
20.836662
 21
12.011683
 31
0.0
  0
LINE
  8
CLIP
 10
20.944815
 20
12.028634
 30
0.0
 11
20.837117
 21
12.063521
 31
0.0
  0
LINE
  8
CLIP
 10
20.836662
 20
12.011683
 30
0.0
 11
20.94436
 21
11.976796
 31
0.0
  0
LINE
  8
CLIP
 10
20.836169
 20
11.955525
 30
0.0
 11
20.836662
 21
12.011683
 31
0.0
  0
LINE
  8
CLIP
 10
20.944815
 20
12.028634
 30
0.0
 11
20.945308
 21
12.084792
 31
0.0
  0
ENDSEC
  0
EOF
